GitarAkorlari.Net
Gitar akorları! Altı teli ile mucizeler yaratan klasik parçalardan tutunda rock, pop, flamenko gibi birçok tarzda müzik yapmanıza olanak verebilen muhteşem buluş. Gitar siteleri arasında en iyi gitar ve müzik sitesi olmayı amaçlayan sitemizde size gitar akorları ( Türkçe akor ), elektro gitar, klasik gitar, gitar notaları, gitar tabları ( Türkçe bas gitar tabları vs. ), gitar resimleri, her türlü tab ve nota, gitar çalma yöntemleri, akord yapma teknikleri, ikinci el gitar, eğitim için mp3, gitar çeşitleri, fender, ibanez, admira, cort, rodrigo, jackson gibi gitar markaları kritikleri, gitar forum, tab ve akor ekleme bölümü, ucuz gitar önerileri, gitar videoları yani gitar çalmak ile ilgili herşeyi sunmaya çalışacağız.Gitar dersleri verenler veya gitar dersi almak isteyenler ilan bölümümüzü ziyaret edebilirler. Müzik ile ilgisi olmayan kullanıcılarımız geniş şarkı sözleri arşivimizden faydalanarak istedikleri şarkı sözü aramalarını sonuçlandırabilirler.Gitar almak veya gitar satmak istiyorum diyorsanız, gitar fiyatları öğrenmek istiyorsanız, 2. el satılık gitar arıyorsanız yine ilanlar bölümümüzü kullanabilirsiniz. Bu bölümde klasik, elektro, akustik, bass gitar ilanları bulabilirsiniz. Programlar bölümünde akort programları. Eğitim bölümümüzde online gitar kursları, gitar metodu, gitar notaları, guitar pro gibi programların kullanımı vb. gitar nasıl çalınır sorunuza yanıt olacak dersleri bulabilirsiniz.

Senden Benden Bizden - Athena - Gitar akorları - Şarkı sözü ve sözleri


Senden Benden Bizden - Athena

Intro : Gitar & Bas & Trompet ayni kalibi çaliyor.

E||--------------------------|-------------------||
B||--------------------------|-------------------||
G||--2-------0---------------|-------------------||
D||-------2--------0--3------|--2----------------||
A||----------------------3---|-------------------||
E||--------------------------|-------------------||

Verse 1
                  Dm      Gm
Hiçbir zaman affetmedin beni
           Dm       Gm
Ben ne cok sevdim seni
        Dm     C      Bb     Am
Herkese bahset senden benden bizden

                 Dm       Gm
Defalarca sordum sana ''Neden''
         Dm      Gm
Cevap vermedin içten
Dm             C      Bb     Am
Herkese bahset senden benden bizden

Verse 2 - NAKARAT

                     A                      D
Eger dans etmek istersen Kirik Kalpler Salonunda
                     A                    D
Bana hiçbir zaman dönme arkadasca yada dostca

Verse 1
                  Dm        Gm
Beni gercekten sevdiysen söyle
       Dm    Gm
Asla hayir deme
Dm             C      Bb     Am
Herkese bahset senden benden bizden

Solo Verse 1 Kalibinda : Dm - Gm - Dm - Gm - Dm C - Bb Am - Dm 
(Normal notasyon için mail atiniz.)

                             Dm                    Gm 
E||-------------------0--1--|---------------------|--3----0------0---3--0--|
B||---------------1-3-------|--3---------------5--|------------------------|
G||--2----------3-----------|---------------------|------------------------|
D||-------------------------|---------------------|------------------------|
A||-------------------------|---------------------|------------------------|
E||-------------------------|---------------------|------------------------|

Dm                     Gm                         Dm           C
--1---------------0---|--3----0------0---3--0----|--5-----------------------|
-----3----------------|--------------------------|--------6-----------------|
----------------------|--------------------------|-------------7------------|
----------------------|--------------------------|------------------7-------|
----------------------|--------------------------|----------------------8---|
----------------------|--------------------------|--------------------------|

Bb        C          Dm            Gb            Dm
-------------------|---------------------------|-------------------||
-------------------|--------3--1---------1-----|--3----------------||
-------------------|----------------3--3---3-2-|-------------------||
----------2--------|---------------------------|-------------------||
-------------------|---------------------------|-------------------||
-------------------|---------------------------|-------------------||


TEKRAR NAKARAT

Verse 1

Final 

Dm C Bb Am Dm

Söyleyen : Athena - Bu gitar akoru 2866 kez okundu

Athena şarkıları

+ Aik Meik Yok
+ An Yirmi
+ Beyoilu
+ Çatal Yürek
+ Devam Boi Ver
+ For Real
+ Hep Ayni
+ Heriey Güzel Olacak
+ Holigan
+ Kime Ne
+ Korsanlar Krali Bazil
+ Köpek
+ Macera
+ Oniki Dev Adam
+ Palavra
+ Sende Yap
+ Senden Benden Bizden
+ Skalonga
+ Tam Zamani iimdi
+ Tarlaya Ektim Soian
+ Yaiamak Var Ya
+ Yalan
+ Yorulmak Olmaz
+ Öpücük

Yeni gitar akorları

+ Damla Damla
+ Zor
+ Yaz Tatili
+ Dua
+ Dua
+ Söz Vermiitin
+ Adsiz Özlem Orjinal
+ Aik Kazanir
+ Bilmezdim Bir Daha Seveceiimiorjinal Ton
+ Tek Baiina

Teşekkürler!

Müzik piyasası mp3 indirme siteleri ile başa çıkmaya çalışırken emeğe saygı açısından sizlere mp3 sunamıyoruz, lütfen mp3 taleplerinde bulunmayınız. Şarkı sözleri, akorlar, tablar ana içeriğimizi oluşturmaktadır. Gitar dersleri, ilanlar, ikinci el müzik aletleri, ders verenler, ders almak isteyenler, şarkı sözü talepleri, gitar programları download linkleri, kayıt dinleti indirme linkleri gibi çeşitli konularda forumumuza yazılar yazabilirsiniz. Gitar akorları sitemizi ziyaret ettiğiniz için teşekkürler.

İlgi gören akorlar

+ Çareler Çaresiz ( 81124 )
+ Bu Kez Anladim ( 66121 )
+ Bilmezdim Bir Daha Seveceiimiorjinal Ton ( 52087 )
+ Caddelerde Rüzgar ( 48917 )
+ Zor ( 46982 )
+ Damla Damla ( 45986 )
+ Söz Vermiitin ( 45621 )
+ Ankara ( 45350 )
+ Git ( 41275 )
+ Dalgalandim Da Duruldum ( 40508 )

2010 © GitarAkorlari.Net